  0
SECTION
  2
HEADER
  9
$ACADVER
  1
AC1004
  9
$INSBASE
 10
0.0
 20
0.0
  9
$EXTMIN
 10
-33.086667
 20
-34.475
  9
$EXTMAX
 10
1016.913333
 20
1450.525
  9
$LIMMIN
 10
-33.086667
 20
-34.475
  9
$LIMMAX
 10
1016.913333
 20
1450.525
  9
$VIEWCTR
 10
6.0
 20
4.5
  9
$VIEWSIZE
 40
9.0
  9
$SNAPMODE
 70
     0
  9
$SNAPUNIT
 10
12.5
 20
12.5
  9
$SNAPBASE
 10
0.0
 20
0.0
  9
$SNAPANG
 50
0.0
  9
$SNAPSTYLE
 70
     0
  9
$SNAPISOPAIR
 70
     0
  9
$GRIDMODE
 70
     1
  9
$GRIDUNIT
 10
50.0
 20
50.0
  9
$ORTHOMODE
 70
     0
  9
$REGENMODE
 70
     1
  9
$FILLMODE
 70
     1
  9
$QTEXTMODE
 70
     0
  9
$DRAGMODE
 70
     2
  9
$LTSCALE
 40
1.0
  9
$OSMODE
 70
     1
  9
$ATTMODE
 70
     1
  9
$TEXTSIZE
 40
0.2
  9
$TRACEWID
 40
0.05
  9
$TEXTSTYLE
  7
STANDARD
  9
$CLAYER
  8
DATA
  9
$CELTYPE
  6
CONTINUOUS
  9
$CECOLOR
 62
     7
  9
$DIMSCALE
 40
1.0
  9
$DIMASZ
 40
0.18
  9
$DIMEXO
 40
0.0625
  9
$DIMDLI
 40
0.38
  9
$DIMRND
 40
0.0
  9
$DIMDLE
 40
0.0
  9
$DIMEXE
 40
0.18
  9
$DIMTP
 40
0.0
  9
$DIMTM
 40
0.0
  9
$DIMTXT
 40
0.18
  9
$DIMCEN
 40
0.09
  9
$DIMTSZ
 40
0.0
  9
$DIMTOL
 70
     0
  9
$DIMLIM
 70
     0
  9
$DIMTIH
 70
     1
  9
$DIMTOH
 70
     1
  9
$DIMSE1
 70
     0
  9
$DIMSE2
 70
     0
  9
$DIMTAD
 70
     0
  9
$DIMZIN
 70
     0
  9
$DIMBLK
  1

  9
$DIMASO
 70
     1
  9
$DIMSHO
 70
     1
  9
$DIMPOST
  1

  9
$DIMAPOST
  1

  9
$DIMALT
 70
     0
  9
$DIMALTD
 70
     2
  9
$DIMALTF
 40
25.4
  9
$DIMLFAC
 40
1.0
  9
$LUNITS
 70
     2
  9
$LUPREC
 70
     4
  9
$AXISMODE
 70
     0
  9
$AXISUNIT
 10
0.0
 20
0.0
  9
$SKETCHINC
 40
0.1
  9
$FILLETRAD
 40
10.0
  9
$AUNITS
 70
     0
  9
$AUPREC
 70
     0
  9
$MENU
  1
acad
  9
$ELEVATION
 40
0.0
  9
$THICKNESS
 40
0.0
  9
$VIEWDIR
 10
0.0
 20
0.0
 30
1.0
  9
$LIMCHECK
 70
     0
  9
$BLIPMODE
 70
     1
  9
$CHAMFERA
 40
0.0
  9
$CHAMFERB
 40
0.0
  9
$FASTZOOM
 70
     1
  9
$SKPOLY
 70
     0
  9
$TDCREATE
 40
0.0
  9
$TDUPDATE
 40
0.0
  9
$TDINDWG
 40
0.0
  9
$TDUSRTIMER
 40
0.0
  9
$USRTIMER
 70
     1
  9
$ANGBASE
 50
0.0
  9
$ANGDIR
 70
     0
  9
$PDMODE
 70
     0
  9
$PDSIZE
 40
0.0
  9
$PLINEWID
 40
0.0
  9
$COORDS
 70
     1
  9
$SPLFRAME
 70
     0
  9
$SPLINESEGS
 70
    10
  9
$ATTDIA
 70
     0
  9
$ATTREQ
 70
     1
  9
$USERI1
 70
     0
  9
$USERI2
 70
     0
  9
$USERI3
 70
     0
  9
$USERI4
 70
     0
  9
$USERI5
 70
     0
  9
$USERR1
 40
0.0
  9
$USERR2
 40
0.0
  9
$USERR3
 40
0.0
  9
$USERR4
 40
0.0
  9
$USERR5
 40
0.0
  0
ENDSEC
  0
SECTION
  2
TABLES
  0
TABLE
  2
LTYPE
 70
    11
  0
LTYPE
  2
CONTINUOUS
 70
     0
  3
Solid line
 72
    65
 73
     0
 40
0.0
  0
LTYPE
  2
DASHED
 70
     0
  3
__ __ __ __ __ __ __ __ __ __ __ __ __ __ __
 72
    65
 73
     2
 40
0.75
 49
0.5
 49
-0.25
  0
LTYPE
  2
HIDDEN
 70
     0
  3
_ _ _ _ _ _ _ _ _ _ _ _ _ _ _ _ _ _ _ _ _ _ 
 72
    65
 73
     2
 40
0.25
 49
0.125
 49
-0.125
  0
LTYPE
  2
CENTER
 70
     0
  3
____ _ ____ _ ____ _ ____ _ ____ _ ____ _ __
 72
    65
 73
     4
 40
2.0
 49
1.25
 49
-0.25
 49
0.25
 49
-0.25
  0
LTYPE
  2
PHANTOM
 70
     0
  3
_____ _ _ _____ _ _ _____ _ _ _____ _ _ ____
 72
    65
 73
     6
 40
2.5
 49
1.25
 49
-0.25
 49
0.25
 49
-0.25
 49
0.25
 49
-0.25
  0
LTYPE
  2
DOT
 70
     0
  3
............................................
 72
    65
 73
     2
 40
0.25
 49
0.0
 49
-0.25
  0
LTYPE
  2
DASHDOT
 70
     0
  3
__ . __ . __ . __ . __ . __ . __ . __ . __ .
 72
    65
 73
     4
 40
1.0
 49
0.5
 49
-0.25
 49
0.0
 49
-0.25
  0
LTYPE
  2
BORDER
 70
     0
  3
__ __ . __ __ . __ __ . __ __ . __ __ . __ _
 72
    65
 73
     6
 40
1.75
 49
0.5
 49
-0.25
 49
0.5
 49
-0.25
 49
0.0
 49
-0.25
  0
LTYPE
  2
DIVIDE
 70
     0
  3
__ . . __ . . __ . . __ . . __ . . __ . . __
 72
    65
 73
     6
 40
1.25
 49
0.5
 49
-0.25
 49
0.0
 49
-0.25
 49
0.0
 49
-0.25
  0
LTYPE
  2
DOTS
 70
     0
  3
close                                       
 72
    65
 73
     2
 40
0.1
 49
0.05
 49
-0.05
  0
LTYPE
  2
CLOSE
 70
     0
  3
                                            
 72
    65
 73
     0
 40
0.0
  0
ENDTAB
  0
TABLE
  2
LAYER
 70
     5
  0
LAYER
  2
0
 70
     0
 62
     7
  6
CONTINUOUS
  0
LAYER
  2
LAYER01
 70
     0
 62
     7
  6
CONTINUOUS
  0
LAYER
  2
DATA
 70
     0
 62
     7
  6
CONTINUOUS
  0
LAYER
  2
DIMENSIONS
 70
     0
 62
     7
  6
CONTINUOUS
  0
LAYER
  2
HIBINO-BASE
 70
     0
 62
     7
  6
CONTINUOUS
  0
ENDTAB
  0
TABLE
  2
STYLE
 70
     2
  0
STYLE
  2
STANDARD
 70
     0
 40
0.0
 41
1.0
 50
0.0
 71
     0
 42
0.2
  3
txt
  4

  0
STYLE
  2
TTF_DEFAULT
 70
     0
 40
0.0
 41
1.0
 50
0.0
 71
     0
 42
0.0
  3
txt
  4
BIGFONT
  0
ENDTAB
  0
TABLE
  2
VIEW
 70
     0
  0
ENDTAB
  0
ENDSEC
  0
SECTION
  2
BLOCKS
  0
ENDSEC
  0
SECTION
  2
ENTITIES
  0
POLYLINE
  8
HIBINO-BASE
  6
CONTINUOUS
 62
     7
 66
     1
 70
     1
 40
2.0
 41
2.0
  0
VERTEX
  8
HIBINO-BASE
 10
50.0
 20
75.0
  0
VERTEX
  8
HIBINO-BASE
 10
50.0
 20
1375.0
  0
VERTEX
  8
HIBINO-BASE
 10
950.0
 20
1375.0
  0
VERTEX
  8
HIBINO-BASE
 10
950.0
 20
75.0
  0
SEQEND
  8
HIBINO-BASE
  0
LINE
  8
DIMENSIONS
  6
CONTINUOUS
 62
     7
 10
449.5
 20
873.0
 11
607.5
 21
873.0
  0
LINE
  8
DIMENSIONS
  6
CONTINUOUS
 62
     7
 10
476.75
 20
937.0
 11
582.5
 21
937.0
  0
LINE
  8
DIMENSIONS
  6
CONTINUOUS
 62
     7
 10
300.0
 20
450.0
 11
529.0
 21
450.0
  0
LINE
  8
DIMENSIONS
  6
CONTINUOUS
 62
     7
 10
315.75
 20
475.0
 11
513.25
 21
475.0
  0
LINE
  8
DATA
  6
CONTINUOUS
 62
     7
 10
312.5
 20
550.0
 11
516.5
 21
550.0
  0
LINE
  8
DATA
  6
CONTINUOUS
 62
     7
 10
474.65
 20
689.0
 11
516.5
 21
689.0
  0
TEXT
  8
DIMENSIONS
  6
CONTINUOUS
 62
     7
 10
484.130045
 20
1007.5
 40
15.0
  1
54.35
  7
TTF_DEFAULT
  0
LINE
  8
DIMENSIONS
  6
CONTINUOUS
 62
     7
 10
474.65
 20
1000.0
 11
529.0
 21
1000.0
  0
LINE
  8
DATA
  6
CONTINUOUS
 62
     7
 10
529.0
 20
971.4
 11
482.15
 21
971.4
  0
LINE
  8
DATA
  6
CONTINUOUS
 62
     7
 10
529.0
 20
975.0
 11
482.15
 21
975.0
  0
TEXT
  8
DIMENSIONS
  6
CONTINUOUS
 62
     7
 10
242.5
 20
698.5
 40
15.0
  1
21.5
 50
90.0
  7
TTF_DEFAULT
  0
LINE
  8
DATA
  6
CONTINUOUS
 62
     7
 10
370.5
 20
665.5
 11
370.5
 21
746.54558
  0
LINE
  8
DATA
  6
CONTINUOUS
 62
     7
 10
458.5
 20
746.54558
 11
458.5
 21
665.5
  0
LINE
  8
DIMENSIONS
  6
CONTINUOUS
 62
     7
 10
275.0
 20
689.0
 11
275.0
 21
713.0
  0
LINE
  8
DIMENSIONS
  6
CONTINUOUS
 62
     7
 10
306.5
 20
550.0
 11
129.10254
 21
550.0
  0
LINE
  8
DIMENSIONS
  6
CONTINUOUS
 62
     7
 10
306.5
 20
689.0
 11
129.10254
 21
689.0
  0
LINE
  8
DIMENSIONS
  6
CONTINUOUS
 62
     7
 10
305.9
 20
615.5
 11
167.5
 21
615.5
  0
LINE
  8
DIMENSIONS
  6
CONTINUOUS
 62
     7
 10
309.75
 20
603.5
 11
167.5
 21
603.5
  0
LINE
  8
DIMENSIONS
  6
CONTINUOUS
 62
     7
 10
302.0
 20
582.0
 11
205.0
 21
582.0
  0
LINE
  8
DIMENSIONS
  6
CONTINUOUS
 62
     7
 10
309.75
 20
636.5
 11
180.0
 21
636.5
  0
LINE
  8
DIMENSIONS
  6
CONTINUOUS
 62
     7
 10
302.0
 20
658.0
 11
217.5
 21
658.0
  0
TEXT
  8
DIMENSIONS
  6
CONTINUOUS
 62
     7
 10
242.5
 20
513.5
 40
15.0
  1
21.5
 50
90.0
  7
TTF_DEFAULT
  0
TEXT
  8
HIBINO-BASE
  6
CONTINUOUS
 62
     7
 10
85.92
 20
42.9566
 40
20.0
  1
Hibino Corporation
  7
TTF_DEFAULT
  0
LINE
  8
DIMENSIONS
  6
CONTINUOUS
 62
     7
 10
136.60254
 20
689.0
 11
136.60254
 21
550.0
  0
LINE
  8
DIMENSIONS
  6
CONTINUOUS
 62
     7
 10
175.0
 20
615.5
 11
175.0
 21
639.5
  0
LINE
  8
DIMENSIONS
  6
CONTINUOUS
 62
     7
 10
189.49992
 20
648.5
 11
187.5
 21
636.5
  0
LINE
  8
DIMENSIONS
  6
CONTINUOUS
 62
     7
 10
185.50008
 20
648.5
 11
187.5
 21
636.5
  0
LINE
  8
DIMENSIONS
  6
CONTINUOUS
 62
     7
 10
187.5
 20
636.5
 11
187.5
 21
660.5
  0
TEXT
  8
DIMENSIONS
  6
CONTINUOUS
 62
     7
 10
167.5
 20
572.0
 40
15.0
  1
12
 50
90.0
  7
TTF_DEFAULT
  0
TEXT
  8
DIMENSIONS
  6
CONTINUOUS
 62
     7
 10
129.10254
 20
607.758363
 40
15.0
  1
139
 50
90.0
  7
TTF_DEFAULT
  0
LINE
  8
DIMENSIONS
  6
CONTINUOUS
 62
     7
 10
138.60246
 20
562.0
 11
136.60254
 21
550.0
  0
LINE
  8
DIMENSIONS
  6
CONTINUOUS
 62
     7
 10
134.60262
 20
562.0
 11
136.60254
 21
550.0
  0
TEXT
  8
DIMENSIONS
  6
CONTINUOUS
 62
     7
 10
205.0
 20
553.75
 40
15.0
  1
21.5
 50
90.0
  7
TTF_DEFAULT
  0
LINE
  8
DIMENSIONS
  6
CONTINUOUS
 62
     7
 10
173.00008
 20
627.5
 11
175.0
 21
615.5
  0
LINE
  8
DIMENSIONS
  6
CONTINUOUS
 62
     7
 10
176.99992
 20
627.5
 11
175.0
 21
615.5
  0
LINE
  8
DIMENSIONS
  6
CONTINUOUS
 62
     7
 10
173.00008
 20
591.5
 11
175.0
 21
603.5
  0
LINE
  8
DIMENSIONS
  6
CONTINUOUS
 62
     7
 10
176.99992
 20
591.5
 11
175.0
 21
603.5
  0
LINE
  8
DIMENSIONS
  6
CONTINUOUS
 62
     7
 10
175.0
 20
603.5
 11
175.0
 21
579.5
  0
LINE
  8
DIMENSIONS
  6
CONTINUOUS
 62
     7
 10
214.49992
 20
570.0
 11
212.5
 21
582.0
  0
LINE
  8
DIMENSIONS
  6
CONTINUOUS
 62
     7
 10
210.50008
 20
570.0
 11
212.5
 21
582.0
  0
LINE
  8
DIMENSIONS
  6
CONTINUOUS
 62
     7
 10
214.49992
 20
615.5
 11
212.5
 21
603.5
  0
LINE
  8
DIMENSIONS
  6
CONTINUOUS
 62
     7
 10
210.50008
 20
615.5
 11
212.5
 21
603.5
  0
LINE
  8
DIMENSIONS
  6
CONTINUOUS
 62
     7
 10
212.5
 20
582.0
 11
212.5
 21
558.0
  0
LINE
  8
DIMENSIONS
  6
CONTINUOUS
 62
     7
 10
212.5
 20
603.5
 11
212.5
 21
627.5
  0
LINE
  8
DIMENSIONS
  6
CONTINUOUS
 62
     7
 10
189.49992
 20
603.5
 11
187.5
 21
615.5
  0
LINE
  8
DIMENSIONS
  6
CONTINUOUS
 62
     7
 10
185.50008
 20
603.5
 11
187.5
 21
615.5
  0
LINE
  8
DIMENSIONS
  6
CONTINUOUS
 62
     7
 10
187.5
 20
615.5
 11
187.5
 21
591.5
  0
LINE
  8
DIMENSIONS
  6
CONTINUOUS
 62
     7
 10
226.99992
 20
624.5
 11
225.0
 21
636.5
  0
LINE
  8
DIMENSIONS
  6
CONTINUOUS
 62
     7
 10
223.00008
 20
624.5
 11
225.0
 21
636.5
  0
LINE
  8
DIMENSIONS
  6
CONTINUOUS
 62
     7
 10
225.0
 20
636.5
 11
225.0
 21
612.5
  0
LINE
  8
DIMENSIONS
  6
CONTINUOUS
 62
     7
 10
138.60246
 20
677.0
 11
136.60254
 21
689.0
  0
LINE
  8
DIMENSIONS
  6
CONTINUOUS
 62
     7
 10
134.60262
 20
677.0
 11
136.60254
 21
689.0
  0
TEXT
  8
DIMENSIONS
  6
CONTINUOUS
 62
     7
 10
180.0
 20
655.5
 40
15.0
  1
21
 50
90.0
  7
TTF_DEFAULT
  0
TEXT
  8
DIMENSIONS
  6
CONTINUOUS
 62
     7
 10
217.5
 20
661.375
 40
15.0
  1
21.5
 50
90.0
  7
TTF_DEFAULT
  0
LINE
  8
DIMENSIONS
  6
CONTINUOUS
 62
     7
 10
226.99992
 20
670.0
 11
225.0
 21
658.0
  0
LINE
  8
DIMENSIONS
  6
CONTINUOUS
 62
     7
 10
223.00008
 20
670.0
 11
225.0
 21
658.0
  0
LINE
  8
DIMENSIONS
  6
CONTINUOUS
 62
     7
 10
225.0
 20
658.0
 11
225.0
 21
682.0
  0
LINE
  8
DATA
  6
CONTINUOUS
 62
     7
 10
350.75
 20
658.0
 11
363.0
 21
658.0
  0
LINE
  8
DIMENSIONS
  6
CONTINUOUS
 62
     7
 10
300.0
 20
556.5
 11
300.0
 21
442.5
  0
LINE
  8
DIMENSIONS
  6
CONTINUOUS
 62
     7
 10
315.75
 20
554.5
 11
315.75
 21
467.5
  0
LINE
  8
DIMENSIONS
  6
CONTINUOUS
 62
     7
 10
312.0
 20
451.99992
 11
300.0
 21
450.0
  0
LINE
  8
DIMENSIONS
  6
CONTINUOUS
 62
     7
 10
312.0
 20
448.00008
 11
300.0
 21
450.0
  0
TEXT
  8
DIMENSIONS
  6
CONTINUOUS
 62
     7
 10
280.656986
 20
492.0
 40
15.0
  1
10.5
 50
90.0
  7
TTF_DEFAULT
  0
LINE
  8
DIMENSIONS
  6
CONTINUOUS
 62
     7
 10
327.75
 20
476.99992
 11
315.75
 21
475.0
  0
LINE
  8
DIMENSIONS
  6
CONTINUOUS
 62
     7
 10
327.75
 20
473.00008
 11
315.75
 21
475.0
  0
LINE
  8
DIMENSIONS
  6
CONTINUOUS
 62
     7
 10
309.75
 20
560.5
 11
242.5
 21
560.5
  0
LINE
  8
DIMENSIONS
  6
CONTINUOUS
 62
     7
 10
309.75
 20
679.5
 11
242.5
 21
679.5
  0
LINE
  8
DIMENSIONS
  6
CONTINUOUS
 62
     7
 10
279.331589
 20
538.0
 11
277.331669
 21
550.0
  0
LINE
  8
DIMENSIONS
  6
CONTINUOUS
 62
     7
 10
275.331749
 20
538.0
 11
277.331669
 21
550.0
  0
LINE
  8
DIMENSIONS
  6
CONTINUOUS
 62
     7
 10
277.331669
 20
550.0
 11
277.331669
 21
526.0
  0
LINE
  8
DIMENSIONS
  6
CONTINUOUS
 62
     7
 10
250.0
 20
560.5
 11
250.0
 21
536.5
  0
LINE
  8
DIMENSIONS
  6
CONTINUOUS
 62
     7
 10
250.0
 20
658.0
 11
250.0
 21
634.0
  0
LINE
  8
DATA
  6
CONTINUOUS
 62
     7
 10
300.0
 20
562.5
 11
300.0
 21
676.5
  0
LINE
  8
DATA
  6
CONTINUOUS
 62
     7
 10
350.75
 20
550.0
 11
350.75
 21
689.0
  0
ARC
  8
DATA
  6
CONTINUOUS
 62
     7
 10
315.75
 20
640.3
 40
3.8
 50
180.0
 51
0.0
  0
LINE
  8
DIMENSIONS
  6
CONTINUOUS
 62
     7
 10
279.331589
 20
572.5
 11
277.331669
 21
560.5
  0
LINE
  8
DIMENSIONS
  6
CONTINUOUS
 62
     7
 10
275.331749
 20
572.5
 11
277.331669
 21
560.5
  0
LINE
  8
DIMENSIONS
  6
CONTINUOUS
 62
     7
 10
277.331669
 20
560.5
 11
277.331669
 21
584.5
  0
LINE
  8
DIMENSIONS
  6
CONTINUOUS
 62
     7
 10
251.99992
 20
548.5
 11
250.0
 21
560.5
  0
LINE
  8
DIMENSIONS
  6
CONTINUOUS
 62
     7
 10
248.00008
 20
548.5
 11
250.0
 21
560.5
  0
LINE
  8
DIMENSIONS
  6
CONTINUOUS
 62
     7
 10
251.99992
 20
594.0
 11
250.0
 21
582.0
  0
LINE
  8
DIMENSIONS
  6
CONTINUOUS
 62
     7
 10
248.00008
 20
594.0
 11
250.0
 21
582.0
  0
LINE
  8
DIMENSIONS
  6
CONTINUOUS
 62
     7
 10
250.0
 20
582.0
 11
250.0
 21
606.0
  0
ARC
  8
DATA
  6
CONTINUOUS
 62
     7
 10
315.75
 20
582.0
 40
7.75
 50
299.361797
 51
60.638203
  0
ARC
  8
DATA
  6
CONTINUOUS
 62
     7
 10
315.75
 20
564.3
 40
3.8
 50
180.0
 51
0.0
  0
LINE
  8
DATA
  6
CONTINUOUS
 62
     7
 10
319.55
 20
564.3
 11
319.55
 21
575.24556
  0
LINE
  8
DATA
  6
CONTINUOUS
 62
     7
 10
311.95
 20
564.3
 11
311.95
 21
575.24556
  0
ARC
  8
DATA
  6
CONTINUOUS
 62
     7
 10
315.75
 20
582.0
 40
7.75
 50
119.361797
 51
240.638203
  0
ARC
  8
DATA
  6
CONTINUOUS
 62
     7
 10
312.5
 20
562.5
 40
12.5
 50
180.0
 51
270.0
  0
LINE
  8
DATA
  6
CONTINUOUS
 62
     7
 10
319.55
 20
588.75444
 11
319.55
 21
599.7
  0
LINE
  8
DATA
  6
CONTINUOUS
 62
     7
 10
311.95
 20
588.75444
 11
311.95
 21
599.7
  0
ARC
  8
DATA
  6
CONTINUOUS
 62
     7
 10
315.75
 20
599.7
 40
3.8
 50
0.0
 51
180.0
  0
CIRCLE
  8
DATA
  6
CONTINUOUS
 62
     7
 10
315.75
 20
615.5
 40
3.85
  0
LINE
  8
DIMENSIONS
  6
CONTINUOUS
 62
     7
 10
248.00008
 20
691.5
 11
250.0
 21
679.5
  0
LINE
  8
DIMENSIONS
  6
CONTINUOUS
 62
     7
 10
251.99992
 20
691.5
 11
250.0
 21
679.5
  0
LINE
  8
DIMENSIONS
  6
CONTINUOUS
 62
     7
 10
248.00008
 20
646.0
 11
250.0
 21
658.0
  0
LINE
  8
DIMENSIONS
  6
CONTINUOUS
 62
     7
 10
251.99992
 20
646.0
 11
250.0
 21
658.0
  0
LINE
  8
DIMENSIONS
  6
CONTINUOUS
 62
     7
 10
250.0
 20
679.5
 11
250.0
 21
703.5
  0
LINE
  8
DIMENSIONS
  6
CONTINUOUS
 62
     7
 10
276.99992
 20
667.5
 11
275.0
 21
679.5
  0
LINE
  8
DIMENSIONS
  6
CONTINUOUS
 62
     7
 10
273.00008
 20
667.5
 11
275.0
 21
679.5
  0
LINE
  8
DIMENSIONS
  6
CONTINUOUS
 62
     7
 10
276.99992
 20
701.0
 11
275.0
 21
689.0
  0
LINE
  8
DIMENSIONS
  6
CONTINUOUS
 62
     7
 10
273.00008
 20
701.0
 11
275.0
 21
689.0
  0
LINE
  8
DIMENSIONS
  6
CONTINUOUS
 62
     7
 10
275.0
 20
679.5
 11
275.0
 21
655.5
  0
LINE
  8
DATA
  6
CONTINUOUS
 62
     7
 10
354.35
 20
658.0
 11
354.35
 21
689.0
  0
LINE
  8
DATA
  6
CONTINUOUS
 62
     7
 10
319.55
 20
640.3
 11
319.55
 21
651.24556
  0
LINE
  8
DATA
  6
CONTINUOUS
 62
     7
 10
311.95
 20
640.3
 11
311.95
 21
651.24556
  0
ARC
  8
DATA
  6
CONTINUOUS
 62
     7
 10
315.75
 20
658.0
 40
7.75
 50
119.361797
 51
240.638203
  0
ARC
  8
DATA
  6
CONTINUOUS
 62
     7
 10
315.75
 20
658.0
 40
7.75
 50
299.361797
 51
60.638203
  0
LINE
  8
DATA
  6
CONTINUOUS
 62
     7
 10
319.55
 20
664.75444
 11
319.55
 21
675.7
  0
LINE
  8
DATA
  6
CONTINUOUS
 62
     7
 10
311.95
 20
664.75444
 11
311.95
 21
675.7
  0
ARC
  8
DATA
  6
CONTINUOUS
 62
     7
 10
315.75
 20
675.7
 40
3.8
 50
0.0
 51
180.0
  0
ARC
  8
DATA
  6
CONTINUOUS
 62
     7
 10
312.5
 20
676.5
 40
12.5
 50
90.0
 51
180.0
  0
LINE
  8
DATA
  6
CONTINUOUS
 62
     7
 10
312.5
 20
689.0
 11
354.35
 21
689.0
  0
TEXT
  8
DIMENSIONS
  6
CONTINUOUS
 62
     7
 10
402.896717
 20
457.5
 40
15.0
  1
229
  7
TTF_DEFAULT
  0
TEXT
  8
DIMENSIONS
  6
CONTINUOUS
 62
     7
 10
397.309951
 20
482.5
 40
15.0
  1
197.5
  7
TTF_DEFAULT
  0
LINE
  8
DATA
  6
CONTINUOUS
 62
     7
 10
370.5
 20
695.0
 11
458.5
 21
695.0
  0
ARC
  8
DATA
  6
CONTINUOUS
 62
     7
 10
363.0
 20
665.5
 40
7.5
 50
270.0
 51
0.0
  0
LINE
  8
DATA
  6
CONTINUOUS
 62
     7
 10
390.35
 20
623.85
 11
390.35
 21
666.15
  0
LINE
  8
DATA
  6
CONTINUOUS
 62
     7
 10
382.65
 20
623.85
 11
382.65
 21
666.15
  0
LINE
  8
DATA
  6
CONTINUOUS
 62
     7
 10
478.25
 20
550.0
 11
478.25
 21
689.0
  0
LINE
  8
DATA
  6
CONTINUOUS
 62
     7
 10
438.65
 20
623.85
 11
438.65
 21
666.15
  0
LINE
  8
DATA
  6
CONTINUOUS
 62
     7
 10
446.35
 20
623.85
 11
446.35
 21
666.15
  0
ARC
  8
DATA
  6
CONTINUOUS
 62
     7
 10
386.5
 20
623.85
 40
3.85
 50
180.0
 51
0.0
  0
ARC
  8
DATA
  6
CONTINUOUS
 62
     7
 10
442.5
 20
623.85
 40
3.85
 50
180.0
 51
0.0
  0
ARC
  8
DATA
  6
CONTINUOUS
 62
     7
 10
386.5
 20
666.15
 40
3.85
 50
0.0
 51
180.0
  0
ARC
  8
DATA
  6
CONTINUOUS
 62
     7
 10
466.0
 20
665.5
 40
7.5
 50
180.0
 51
270.0
  0
LINE
  8
DATA
  6
CONTINUOUS
 62
     7
 10
474.65
 20
658.0
 11
474.65
 21
689.0
  0
LINE
  8
DATA
  6
CONTINUOUS
 62
     7
 10
466.0
 20
658.0
 11
478.25
 21
658.0
  0
ARC
  8
DATA
  6
CONTINUOUS
 62
     7
 10
442.5
 20
666.15
 40
3.85
 50
0.0
 51
180.0
  0
LINE
  8
DIMENSIONS
  6
CONTINUOUS
 62
     7
 10
354.35
 20
1000.0
 11
474.65
 21
1000.0
  0
LINE
  8
DATA
  6
CONTINUOUS
 62
     7
 10
470.75
 20
940.6
 11
358.25
 21
940.6
  0
LINE
  8
DIMENSIONS
  6
CONTINUOUS
 62
     7
 10
366.35
 20
1001.99992
 11
354.35
 21
1000.0
  0
LINE
  8
DIMENSIONS
  6
CONTINUOUS
 62
     7
 10
366.35
 20
998.00008
 11
354.35
 21
1000.0
  0
LINE
  8
DATA
  6
CONTINUOUS
 62
     7
 10
370.5
 20
937.0
 11
358.25
 21
937.0
  0
TEXT
  8
DIMENSIONS
  6
CONTINUOUS
 62
     7
 10
278.325318
 20
720.5
 40
15.0
  1
9.5
 50
90.0
  7
TTF_DEFAULT
  0
TEXT
  8
DIMENSIONS
  6
CONTINUOUS
 62
     7
 10
309.480045
 20
1007.5
 40
15.0
  1
54.35
  7
TTF_DEFAULT
  0
LINE
  8
DIMENSIONS
  6
CONTINUOUS
 62
     7
 10
342.35
 20
1001.99992
 11
354.35
 21
1000.0
  0
LINE
  8
DIMENSIONS
  6
CONTINUOUS
 62
     7
 10
342.35
 20
998.00008
 11
354.35
 21
1000.0
  0
LINE
  8
DIMENSIONS
  6
CONTINUOUS
 62
     7
 10
312.0
 20
1001.99992
 11
300.0
 21
1000.0
  0
LINE
  8
DIMENSIONS
  6
CONTINUOUS
 62
     7
 10
312.0
 20
998.00008
 11
300.0
 21
1000.0
  0
LINE
  8
DIMENSIONS
  6
CONTINUOUS
 62
     7
 10
354.35
 20
973.5
 11
354.35
 21
1007.5
  0
LINE
  8
DIMENSIONS
  6
CONTINUOUS
 62
     7
 10
300.0
 20
981.0
 11
300.0
 21
1007.5
  0
LINE
  8
DIMENSIONS
  6
CONTINUOUS
 62
     7
 10
300.0
 20
1000.0
 11
354.35
 21
1000.0
  0
ARC
  8
DATA
  6
CONTINUOUS
 62
     7
 10
358.25
 20
944.5
 40
3.9
 50
180.0
 51
270.0
  0
ARC
  8
DATA
  6
CONTINUOUS
 62
     7
 10
358.25
 20
944.5
 40
7.5
 50
180.0
 51
270.0
  0
LINE
  8
DATA
  6
CONTINUOUS
 62
     7
 10
350.75
 20
944.5
 11
350.75
 21
967.5
  0
LINE
  8
DATA
  6
CONTINUOUS
 62
     7
 10
354.35
 20
944.5
 11
354.35
 21
967.5
  0
ARC
  8
DATA
  6
CONTINUOUS
 62
     7
 10
346.85
 20
967.5
 40
3.9
 50
0.0
 51
90.0
  0
ARC
  8
DATA
  6
CONTINUOUS
 62
     7
 10
346.85
 20
967.5
 40
7.5
 50
0.0
 51
90.0
  0
LINE
  8
DATA
  6
CONTINUOUS
 62
     7
 10
300.0
 20
971.4
 11
300.0
 21
975.0
  0
LINE
  8
DATA
  6
CONTINUOUS
 62
     7
 10
300.0
 20
971.4
 11
346.85
 21
971.4
  0
LINE
  8
DATA
  6
CONTINUOUS
 62
     7
 10
300.0
 20
975.0
 11
346.85
 21
975.0
  0
LINE
  8
DATA
  6
CONTINUOUS
 62
     7
 10
370.5
 20
888.0
 11
370.5
 21
937.0
  0
LINE
  8
DATA
  6
CONTINUOUS
 62
     7
 10
390.35
 20
886.1131
 11
390.35
 21
914.12199
  0
LINE
  8
DATA
  6
CONTINUOUS
 62
     7
 10
382.65
 20
886.1131
 11
382.65
 21
914.12199
  0
LINE
  8
DATA
  6
CONTINUOUS
 62
     7
 10
458.5
 20
888.0
 11
458.5
 21
937.0
  0
LINE
  8
DATA
  6
CONTINUOUS
 62
     7
 10
438.65
 20
886.1131
 11
438.65
 21
914.12199
  0
LINE
  8
DATA
  6
CONTINUOUS
 62
     7
 10
446.35
 20
886.1131
 11
446.35
 21
914.12199
  0
LINE
  8
DATA
  6
CONTINUOUS
 62
     7
 10
390.35
 20
720.42359
 11
390.35
 21
748.43248
  0
LINE
  8
DATA
  6
CONTINUOUS
 62
     7
 10
382.65
 20
720.42359
 11
382.65
 21
748.43248
  0
LINE
  8
DATA
  6
CONTINUOUS
 62
     7
 10
438.65
 20
720.42359
 11
438.65
 21
748.43248
  0
LINE
  8
DATA
  6
CONTINUOUS
 62
     7
 10
446.35
 20
720.42359
 11
446.35
 21
748.43248
  0
ARC
  8
DATA
  6
CONTINUOUS
 62
     7
 10
386.5
 20
722.96917
 40
3.85
 50
180.0
 51
0.0
  0
ARC
  8
DATA
  6
CONTINUOUS
 62
     7
 10
386.5
 20
720.42359
 40
3.85
 50
180.0
 51
0.0
  0
ARC
  8
DATA
  6
CONTINUOUS
 62
     7
 10
442.5
 20
722.96917
 40
3.85
 50
180.0
 51
0.0
  0
ARC
  8
DATA
  6
CONTINUOUS
 62
     7
 10
442.5
 20
720.42359
 40
3.85
 50
180.0
 51
0.0
  0
LINE
  8
DATA
  6
CONTINUOUS
 62
     7
 10
385.5
 20
761.54558
 11
370.5
 21
746.54558
  0
LINE
  8
DATA
  6
CONTINUOUS
 62
     7
 10
385.5
 20
759.0
 11
370.5
 21
744.0
  0
LINE
  8
DATA
  6
CONTINUOUS
 62
     7
 10
370.5
 20
890.54558
 11
385.5
 21
875.54558
  0
LINE
  8
DATA
  6
CONTINUOUS
 62
     7
 10
370.5
 20
888.0
 11
385.5
 21
873.0
  0
LINE
  8
DATA
  6
CONTINUOUS
 62
     7
 10
385.5
 20
759.0
 11
443.5
 21
759.0
  0
LINE
  8
DATA
  6
CONTINUOUS
 62
     7
 10
385.5
 20
761.54558
 11
443.5
 21
761.54558
  0
LINE
  8
DATA
  6
CONTINUOUS
 62
     7
 10
385.5
 20
759.0
 11
385.5
 21
761.54558
  0
ARC
  8
DATA
  6
CONTINUOUS
 62
     7
 10
386.5
 20
748.43248
 40
3.85
 50
0.0
 51
180.0
  0
LINE
  8
DATA
  6
CONTINUOUS
 62
     7
 10
443.5
 20
759.0
 11
443.5
 21
761.54558
  0
ARC
  8
DATA
  6
CONTINUOUS
 62
     7
 10
442.5
 20
748.43248
 40
3.85
 50
0.0
 51
180.0
  0
LINE
  8
DATA
  6
CONTINUOUS
 62
     7
 10
443.5
 20
761.54558
 11
458.5
 21
746.54558
  0
LINE
  8
DATA
  6
CONTINUOUS
 62
     7
 10
443.5
 20
759.0
 11
458.5
 21
744.0
  0
LINE
  8
DATA
  6
CONTINUOUS
 62
     7
 10
443.5
 20
875.54558
 11
385.5
 21
875.54558
  0
LINE
  8
DATA
  6
CONTINUOUS
 62
     7
 10
443.5
 20
873.0
 11
385.5
 21
873.0
  0
ARC
  8
DATA
  6
CONTINUOUS
 62
     7
 10
386.5
 20
886.1131
 40
3.85
 50
180.0
 51
0.0
  0
LINE
  8
DATA
  6
CONTINUOUS
 62
     7
 10
385.5
 20
873.0
 11
385.5
 21
875.54558
  0
ARC
  8
DATA
  6
CONTINUOUS
 62
     7
 10
442.5
 20
886.1131
 40
3.85
 50
180.0
 51
0.0
  0
LINE
  8
DATA
  6
CONTINUOUS
 62
     7
 10
443.5
 20
873.0
 11
443.5
 21
875.54558
  0
LINE
  8
DATA
  6
CONTINUOUS
 62
     7
 10
443.5
 20
875.54558
 11
458.5
 21
890.54558
  0
LINE
  8
DATA
  6
CONTINUOUS
 62
     7
 10
443.5
 20
873.0
 11
458.5
 21
888.0
  0
TEXT
  8
DIMENSIONS
  6
CONTINUOUS
 62
     7
 10
396.805045
 20
1007.5
 40
15.0
  1
120.3
  7
TTF_DEFAULT
  0
ARC
  8
DATA
  6
CONTINUOUS
 62
     7
 10
386.5
 20
911.57641
 40
3.85
 50
0.0
 51
180.0
  0
ARC
  8
DATA
  6
CONTINUOUS
 62
     7
 10
386.5
 20
914.12199
 40
3.85
 50
0.0
 51
180.0
  0
LINE
  8
DIMENSIONS
  6
CONTINUOUS
 62
     7
 10
486.65
 20
1001.99992
 11
474.65
 21
1000.0
  0
LINE
  8
DIMENSIONS
  6
CONTINUOUS
 62
     7
 10
486.65
 20
998.00008
 11
474.65
 21
1000.0
  0
LINE
  8
DIMENSIONS
  6
CONTINUOUS
 62
     7
 10
474.65
 20
973.5
 11
474.65
 21
1007.5
  0
LINE
  8
DIMENSIONS
  6
CONTINUOUS
 62
     7
 10
462.65
 20
1001.99992
 11
474.65
 21
1000.0
  0
LINE
  8
DIMENSIONS
  6
CONTINUOUS
 62
     7
 10
462.65
 20
998.00008
 11
474.65
 21
1000.0
  0
ARC
  8
DATA
  6
CONTINUOUS
 62
     7
 10
470.75
 20
944.5
 40
3.9
 50
270.0
 51
0.0
  0
ARC
  8
DATA
  6
CONTINUOUS
 62
     7
 10
470.75
 20
944.5
 40
7.5
 50
270.0
 51
0.0
  0
LINE
  8
DATA
  6
CONTINUOUS
 62
     7
 10
470.75
 20
937.0
 11
458.5
 21
937.0
  0
ARC
  8
DATA
  6
CONTINUOUS
 62
     7
 10
442.5
 20
911.57641
 40
3.85
 50
0.0
 51
180.0
  0
ARC
  8
DATA
  6
CONTINUOUS
 62
     7
 10
442.5
 20
914.12199
 40
3.85
 50
0.0
 51
180.0
  0
LINE
  8
DATA
  6
CONTINUOUS
 62
     7
 10
478.25
 20
944.5
 11
478.25
 21
967.5
  0
LINE
  8
DATA
  6
CONTINUOUS
 62
     7
 10
474.65
 20
944.5
 11
474.65
 21
967.5
  0
ARC
  8
DATA
  6
CONTINUOUS
 62
     7
 10
482.15
 20
967.5
 40
3.9
 50
90.0
 51
180.0
  0
ARC
  8
DATA
  6
CONTINUOUS
 62
     7
 10
482.15
 20
967.5
 40
7.5
 50
90.0
 51
180.0
  0
LINE
  8
DIMENSIONS
  6
CONTINUOUS
 62
     7
 10
650.0
 20
753.0
 11
650.0
 21
442.5
  0
LINE
  8
DATA
  6
CONTINUOUS
 62
     7
 10
707.73208
 20
701.26791
 11
650.0
 21
759.0
  0
LINE
  8
DATA
  6
CONTINUOUS
 62
     7
 10
710.27766
 20
703.81349
 11
652.54558
 21
761.54558
  0
ARC
  8
DIMENSIONS
  6
CONTINUOUS
 62
     7
 10
714.0
 20
694.999989
 40
52.22307
 50
134.999995
 51
183.957362
  0
LINE
  8
DIMENSIONS
  6
CONTINUOUS
 62
     7
 10
850.0
 20
550.0
 11
850.0
 21
761.54558
  0
LINE
  8
HIBINO-BASE
  6
CONTINUOUS
 62
     7
 10
500.0
 20
125.0
 11
950.0
 21
125.0
  0
LINE
  8
0
  6
CONTINUOUS
 62
     7
 10
500.0
 20
188.5
 11
950.0
 21
188.5
  0
LINE
  8
0
  6
CONTINUOUS
 62
     7
 10
500.0
 20
186.5
 11
950.0
 21
186.5
  0
LINE
  8
0
  6
CONTINUOUS
 62
     7
 10
500.0
 20
188.5
 11
500.0
 21
186.5
  0
LINE
  8
0
  6
CONTINUOUS
 62
     7
 10
950.0
 20
188.5
 11
950.0
 21
186.5
  0
SOLID
  8
HIBINO-BASE
  6
CONTINUOUS
 62
     7
 10
500.0
 20
188.5
 11
950.0
 21
188.5
 12
500.0
 22
186.5
 13
950.0
 23
186.5
  0
TEXT
  8
HIBINO-BASE
  6
CONTINUOUS
 62
     7
 10
743.75
 20
87.5
 40
12.5
  1
N.Sasaki
  7
TTF_DEFAULT
  0
TEXT
  8
HIBINO-BASE
  6
CONTINUOUS
 62
     7
 10
740.0
 20
112.5
 40
12.5
  1
DRAWN
  7
TTF_DEFAULT
  0
LINE
  8
DIMENSIONS
  6
CONTINUOUS
 62
     7
 10
723.6
 20
694.999989
 11
832.5
 21
694.999989
  0
TEXT
  8
HIBINO-BASE
  6
CONTINUOUS
 62
     7
 10
618.75
 20
87.5
 40
12.5
  1
'98.8.
  7
TTF_DEFAULT
  0
TEXT
  8
HIBINO-BASE
  6
CONTINUOUS
 62
     7
 10
615.0
 20
112.5
 40
12.5
  1
DATE
  7
TTF_DEFAULT
  0
LINE
  8
0
  6
CONTINUOUS
 62
     7
 10
499.0
 20
75.0
 11
499.0
 21
187.5
  0
LINE
  8
0
  6
CONTINUOUS
 62
     7
 10
501.0
 20
75.0
 11
501.0
 21
187.5
  0
LINE
  8
0
  6
CONTINUOUS
 62
     7
 10
499.0
 20
75.0
 11
501.0
 21
75.0
  0
LINE
  8
0
  6
CONTINUOUS
 62
     7
 10
499.0
 20
187.5
 11
501.0
 21
187.5
  0
SOLID
  8
HIBINO-BASE
  6
CONTINUOUS
 62
     7
 10
499.0
 20
75.0
 11
499.0
 21
187.5
 12
501.0
 22
75.0
 13
501.0
 23
187.5
  0
TEXT
  8
HIBINO-BASE
  6
CONTINUOUS
 62
     7
 10
502.5
 20
112.5
 40
11.25
  1
図面サイズ
  7
TTF_DEFAULT
  0
TEXT
  8
HIBINO-BASE
  6
CONTINUOUS
 62
     7
 10
518.75
 20
81.25
 40
20.0
  1
A4
  7
TTF_DEFAULT
  0
LINE
  8
HIBINO-BASE
  6
CONTINUOUS
 62
     7
 10
571.875
 20
81.25
 11
590.625
 21
100.0
  0
TEXT
  8
HIBINO-BASE
  6
CONTINUOUS
 62
     7
 10
568.75
 20
90.625
 40
15.0
  1
1
  7
TTF_DEFAULT
  0
LINE
  8
HIBINO-BASE
  6
CONTINUOUS
 62
     7
 10
562.5
 20
75.0
 11
562.5
 21
125.0
  0
TEXT
  8
HIBINO-BASE
  6
CONTINUOUS
 62
     7
 10
587.5
 20
81.25
 40
15.0
  1
5
  7
TTF_DEFAULT
  0
TEXT
  8
HIBINO-BASE
  6
CONTINUOUS
 62
     7
 10
565.0
 20
112.5
 40
12.5
  1
SCALE
  7
TTF_DEFAULT
  0
LINE
  8
HIBINO-BASE
  6
CONTINUOUS
 62
     7
 10
612.5
 20
75.0
 11
612.5
 21
125.0
  0
TEXT
  8
HIBINO-BASE
  6
CONTINUOUS
 62
     7
 10
502.5
 20
175.0
 40
12.5
  1
NOTE
  7
TTF_DEFAULT
  0
LINE
  8
HIBINO-BASE
  6
CONTINUOUS
 62
     7
 10
675.0
 20
75.0
 11
675.0
 21
187.5
  0
LINE
  8
HIBINO-BASE
  6
CONTINUOUS
 62
     7
 10
737.5
 20
125.0
 11
737.5
 21
75.0
  0
TEXT
  8
HIBINO-BASE
  6
CONTINUOUS
 62
     7
 10
677.5
 20
112.5
 40
12.5
  1
DESIGN
  7
TTF_DEFAULT
  0
TEXT
  8
HIBINO-BASE
  6
CONTINUOUS
 62
     7
 10
677.5
 20
175.0
 40
12.5
  1
TITLE
  7
TTF_DEFAULT
  0
TEXT
  8
DIMENSIONS
  6
CONTINUOUS
 62
     7
 10
582.5
 20
692.5
 40
15.0
  1
4-φ15.5
  7
TTF_DEFAULT
  0
TEXT
  8
DIMENSIONS
  6
CONTINUOUS
 62
     7
 10
582.5
 20
642.5
 40
15.0
  1
2-φ7.7
  7
TTF_DEFAULT
  0
LINE
  8
DIMENSIONS
  6
CONTINUOUS
 62
     7
 10
529.0
 20
556.5
 11
529.0
 21
442.5
  0
LINE
  8
DIMENSIONS
  6
CONTINUOUS
 62
     7
 10
513.25
 20
554.5
 11
513.25
 21
467.5
  0
LINE
  8
DIMENSIONS
  6
CONTINUOUS
 62
     7
 10
501.25
 20
476.99992
 11
513.25
 21
475.0
  0
LINE
  8
DIMENSIONS
  6
CONTINUOUS
 62
     7
 10
501.25
 20
473.00008
 11
513.25
 21
475.0
  0
LINE
  8
DIMENSIONS
  6
CONTINUOUS
 62
     7
 10
517.0
 20
451.99992
 11
529.0
 21
450.0
  0
LINE
  8
DIMENSIONS
  6
CONTINUOUS
 62
     7
 10
517.0
 20
448.00008
 11
529.0
 21
450.0
  0
ARC
  8
DATA
  6
CONTINUOUS
 62
     7
 10
513.25
 20
582.0
 40
7.75
 50
119.361797
 51
240.638203
  0
ARC
  8
DATA
  6
CONTINUOUS
 62
     7
 10
513.25
 20
658.0
 40
7.75
 50
119.361797
 51
240.638203
  0
LINE
  8
DIMENSIONS
  6
CONTINUOUS
 62
     7
 10
516.056931
 20
618.135078
 11
550.0
 21
650.0
  0
ARC
  8
DATA
  6
CONTINUOUS
 62
     7
 10
513.25
 20
640.3
 40
3.8
 50
180.0
 51
0.0
  0
LINE
  8
DATA
  6
CONTINUOUS
 62
     7
 10
529.0
 20
676.5
 11
529.0
 21
562.5
  0
LINE
  8
DIMENSIONS
  6
CONTINUOUS
 62
     7
 10
523.436991
 20
627.806397
 11
516.056931
 21
618.135078
  0
LINE
  8
DIMENSIONS
  6
CONTINUOUS
 62
     7
 10
526.174625
 20
624.890221
 11
516.056931
 21
618.135078
  0
LINE
  8
DATA
  6
CONTINUOUS
 62
     7
 10
509.45
 20
588.75444
 11
509.45
 21
599.7
  0
LINE
  8
DATA
  6
CONTINUOUS
 62
     7
 10
509.45
 20
564.3
 11
509.45
 21
575.24556
  0
LINE
  8
DATA
  6
CONTINUOUS
 62
     7
 10
517.05
 20
564.3
 11
517.05
 21
575.24556
  0
ARC
  8
DATA
  6
CONTINUOUS
 62
     7
 10
513.25
 20
582.0
 40
7.75
 50
299.361797
 51
60.638203
  0
LINE
  8
DATA
  6
CONTINUOUS
 62
     7
 10
517.05
 20
588.75444
 11
517.05
 21
599.7
  0
ARC
  8
DATA
  6
CONTINUOUS
 62
     7
 10
513.25
 20
599.7
 40
3.8
 50
0.0
 51
180.0
  0
ARC
  8
DATA
  6
CONTINUOUS
 62
     7
 10
513.25
 20
564.3
 40
3.8
 50
180.0
 51
0.0
  0
ARC
  8
DATA
  6
CONTINUOUS
 62
     7
 10
516.5
 20
562.5
 40
12.5
 50
270.0
 51
0.0
  0
CIRCLE
  8
DATA
  6
CONTINUOUS
 62
     7
 10
513.25
 20
615.5
 40
3.85
  0
LINE
  8
DIMENSIONS
  6
CONTINUOUS
 62
     7
 10
550.0
 20
650.0
 11
575.0
 21
650.0
  0
LINE
  8
DIMENSIONS
  6
CONTINUOUS
 62
     7
 10
550.0
 20
700.0
 11
575.0
 21
700.0
  0
LINE
  8
DIMENSIONS
  6
CONTINUOUS
 62
     7
 10
524.750373
 20
674.180346
 11
518.353411
 21
663.832469
  0
LINE
  8
DIMENSIONS
  6
CONTINUOUS
 62
     7
 10
527.760559
 20
671.546433
 11
518.353411
 21
663.832469
  0
LINE
  8
DIMENSIONS
  6
CONTINUOUS
 62
     7
 10
518.353411
 20
663.832469
 11
550.0
 21
700.0
  0
LINE
  8
DATA
  6
CONTINUOUS
 62
     7
 10
509.45
 20
640.3
 11
509.45
 21
651.24556
  0
LINE
  8
DATA
  6
CONTINUOUS
 62
     7
 10
517.05
 20
640.3
 11
517.05
 21
651.24556
  0
ARC
  8
DATA
  6
CONTINUOUS
 62
     7
 10
513.25
 20
658.0
 40
7.75
 50
299.361797
 51
60.638203
  0
LINE
  8
DATA
  6
CONTINUOUS
 62
     7
 10
509.45
 20
664.75444
 11
509.45
 21
675.7
  0
LINE
  8
DATA
  6
CONTINUOUS
 62
     7
 10
517.05
 20
664.75444
 11
517.05
 21
675.7
  0
ARC
  8
DATA
  6
CONTINUOUS
 62
     7
 10
513.25
 20
675.7
 40
3.8
 50
0.0
 51
180.0
  0
ARC
  8
DATA
  6
CONTINUOUS
 62
     7
 10
516.5
 20
676.5
 40
12.5
 50
0.0
 51
90.0
  0
LINE
  8
DIMENSIONS
  6
CONTINUOUS
 62
     7
 10
752.0
 20
544.0
 11
752.0
 21
442.5
  0
LINE
  8
DIMENSIONS
  6
CONTINUOUS
 62
     7
 10
714.0
 20
544.0
 11
714.0
 21
467.5
  0
LINE
  8
DIMENSIONS
  6
CONTINUOUS
 62
     7
 10
752.0
 20
450.0
 11
650.0
 21
450.0
  0
LINE
  8
DIMENSIONS
  6
CONTINUOUS
 62
     7
 10
662.0
 20
448.00008
 11
650.0
 21
450.0
  0
LINE
  8
DIMENSIONS
  6
CONTINUOUS
 62
     7
 10
662.0
 20
451.99992
 11
650.0
 21
450.0
  0
LINE
  8
DIMENSIONS
  6
CONTINUOUS
 62
     7
 10
740.0
 20
448.00008
 11
752.0
 21
450.0
  0
LINE
  8
DIMENSIONS
  6
CONTINUOUS
 62
     7
 10
740.0
 20
451.99992
 11
752.0
 21
450.0
  0
TEXT
  8
DIMENSIONS
  6
CONTINUOUS
 62
     7
 10
673.814906
 20
482.5
 40
15.0
  1
64
  7
TTF_DEFAULT
  0
TEXT
  8
DIMENSIONS
  6
CONTINUOUS
 62
     7
 10
688.722359
 20
457.5
 40
15.0
  1
102
  7
TTF_DEFAULT
  0
LINE
  8
DIMENSIONS
  6
CONTINUOUS
 62
     7
 10
650.0
 20
475.0
 11
714.0
 21
475.0
  0
LINE
  8
DIMENSIONS
  6
CONTINUOUS
 62
     7
 10
662.0
 20
476.99992
 11
650.0
 21
475.0
  0
LINE
  8
DIMENSIONS
  6
CONTINUOUS
 62
     7
 10
662.0
 20
473.00008
 11
650.0
 21
475.0
  0
TEXT
  8
DIMENSIONS
  6
CONTINUOUS
 62
     7
 10
724.814906
 20
482.5
 40
15.0
  1
38
  7
TTF_DEFAULT
  0
LINE
  8
DIMENSIONS
  6
CONTINUOUS
 62
     7
 10
740.0
 20
476.99992
 11
752.0
 21
475.0
  0
LINE
  8
DIMENSIONS
  6
CONTINUOUS
 62
     7
 10
740.0
 20
473.00008
 11
752.0
 21
475.0
  0
LINE
  8
DIMENSIONS
  6
CONTINUOUS
 62
     7
 10
726.0
 20
476.99992
 11
714.0
 21
475.0
  0
LINE
  8
DIMENSIONS
  6
CONTINUOUS
 62
     7
 10
726.0
 20
473.00008
 11
714.0
 21
475.0
  0
LINE
  8
DIMENSIONS
  6
CONTINUOUS
 62
     7
 10
714.0
 20
475.0
 11
752.0
 21
475.0
  0
LINE
  8
DIMENSIONS
  6
CONTINUOUS
 62
     7
 10
702.0
 20
476.99992
 11
714.0
 21
475.0
  0
LINE
  8
DIMENSIONS
  6
CONTINUOUS
 62
     7
 10
702.0
 20
473.00008
 11
714.0
 21
475.0
  0
LINE
  8
DATA
  6
CONTINUOUS
 62
     7
 10
748.4
 20
685.4
 11
748.4
 21
550.0
  0
LINE
  8
DATA
  6
CONTINUOUS
 62
     7
 10
752.0
 20
689.0
 11
752.0
 21
550.0
  0
LINE
  8
DATA
  6
CONTINUOUS
 62
     7
 10
714.0
 20
550.0
 11
714.0
 21
686.13583
  0
LINE
  8
DATA
  6
CONTINUOUS
 62
     7
 10
752.0
 20
550.0
 11
714.0
 21
550.0
  0
TEXT
  8
DIMENSIONS
  6
CONTINUOUS
 62
     7
 10
680.1961
 20
690.755021
 40
15.0
  1
45゜
  7
TTF_DEFAULT
  0
ARC
  8
DIMENSIONS
  6
CONTINUOUS
 62
     7
 10
717.6
 20
654.6
 40
33.721951
 50
90.0
 51
151.493747
  0
ARC
  8
DIMENSIONS
  6
CONTINUOUS
 62
     7
 10
714.0
 20
694.999989
 40
52.22307
 50
221.62989
 51
270.0
  0
TEXT
  8
DIMENSIONS
  6
CONTINUOUS
 62
     7
 10
649.165205
 20
667.515087
 40
15.0
  1
135゜
  7
TTF_DEFAULT
  0
LINE
  8
DIMENSIONS
  6
CONTINUOUS
 62
     7
 10
749.928368
 20
669.725359
 11
741.44502
 21
678.44502
  0
LINE
  8
DIMENSIONS
  6
CONTINUOUS
 62
     7
 10
746.641954
 20
667.445404
 11
741.44502
 21
678.44502
  0
LINE
  8
DIMENSIONS
  6
CONTINUOUS
 62
     7
 10
705.435636
 20
688.154853
 11
717.6
 21
688.321951
  0
LINE
  8
DIMENSIONS
  6
CONTINUOUS
 62
     7
 10
706.14731
 20
684.218834
 11
717.6
 21
688.321951
  0
ARC
  8
DIMENSIONS
  6
CONTINUOUS
 62
     7
 10
717.6
 20
654.6
 40
33.721951
 50
343.506253
 51
45.0
  0
LINE
  8
DIMENSIONS
  6
CONTINUOUS
 62
     7
 10
701.849689
 20
642.168944
 11
714.0
 21
642.776919
  0
LINE
  8
DIMENSIONS
  6
CONTINUOUS
 62
     7
 10
702.309238
 20
646.142297
 11
714.0
 21
642.776919
  0
LINE
  8
DATA
  6
CONTINUOUS
 62
     7
 10
717.6
 20
654.6
 11
717.6
 21
686.13583
  0
ARC
  8
DATA
  6
CONTINUOUS
 62
     7
 10
692.6
 20
686.13582
 40
21.4
 50
0.000027
 51
45.000019
  0
ARC
  8
DATA
  6
CONTINUOUS
 62
     7
 10
692.6
 20
686.13581
 40
25.0
 50
0.000046
 51
45.000032
  0
LINE
  8
DATA
  6
CONTINUOUS
 62
     7
 10
752.0
 20
689.0
 11
714.0
 21
651.0
  0
TEXT
  8
HIBINO-BASE
  6
CONTINUOUS
 62
     7
 10
865.0
 20
112.5
 40
12.5
  1
DRAWING NO.
  7
TTF_DEFAULT
  0
TEXT
  8
HIBINO-BASE
  6
CONTINUOUS
 62
     7
 10
793.650131
 20
42.9566
 40
20.0
  1
ヒビノ株式会社
  7
TTF_DEFAULT
  0
TEXT
  8
DATA
  6
CONTINUOUS
 62
     7
 10
775.0
 20
137.5
 40
15.0
  1
EON BRK2
  7
TTF_DEFAULT
  0
LINE
  8
HIBINO-BASE
  6
CONTINUOUS
 62
     7
 10
862.5
 20
125.0
 11
862.5
 21
75.0
  0
LINE
  8
HIBINO-BASE
  6
CONTINUOUS
 62
     7
 10
800.0
 20
75.0
 11
800.0
 21
125.0
  0
TEXT
  8
HIBINO-BASE
  6
CONTINUOUS
 62
     7
 10
802.5
 20
112.5
 40
12.5
  1
CHECK
  7
TTF_DEFAULT
  0
TEXT
  8
DATA
  6
CONTINUOUS
 62
     7
 10
775.0
 20
162.5
 40
15.0
  1
JBL
  7
TTF_DEFAULT
  0
LINE
  8
DIMENSIONS
  6
CONTINUOUS
 62
     7
 10
758.0
 20
550.0
 11
857.5
 21
550.0
  0
LINE
  8
DIMENSIONS
  6
CONTINUOUS
 62
     7
 10
758.0
 20
689.0
 11
807.5
 21
689.0
  0
LINE
  8
DIMENSIONS
  6
CONTINUOUS
 62
     7
 10
800.0
 20
689.0
 11
800.0
 21
550.0
  0
TEXT
  8
DIMENSIONS
  6
CONTINUOUS
 62
     7
 10
842.5
 20
637.542353
 40
15.0
  1
211.5
 50
90.0
  7
TTF_DEFAULT
  0
LINE
  8
DIMENSIONS
  6
CONTINUOUS
 62
     7
 10
825.0
 20
694.999989
 11
825.0
 21
550.0
  0
TEXT
  8
DIMENSIONS
  6
CONTINUOUS
 62
     7
 10
817.5
 20
610.222353
 40
15.0
  1
145
 50
90.0
  7
TTF_DEFAULT
  0
TEXT
  8
DIMENSIONS
  6
CONTINUOUS
 62
     7
 10
792.5
 20
607.222359
 40
15.0
  1
139
 50
90.0
  7
TTF_DEFAULT
  0
LINE
  8
DIMENSIONS
  6
CONTINUOUS
 62
     7
 10
801.99992
 20
562.0
 11
800.0
 21
550.0
  0
LINE
  8
DIMENSIONS
  6
CONTINUOUS
 62
     7
 10
798.00008
 20
562.0
 11
800.0
 21
550.0
  0
LINE
  8
DIMENSIONS
  6
CONTINUOUS
 62
     7
 10
848.00008
 20
562.0
 11
850.0
 21
550.0
  0
LINE
  8
DIMENSIONS
  6
CONTINUOUS
 62
     7
 10
851.99992
 20
562.0
 11
850.0
 21
550.0
  0
LINE
  8
DIMENSIONS
  6
CONTINUOUS
 62
     7
 10
826.99992
 20
562.0
 11
825.0
 21
550.0
  0
LINE
  8
DIMENSIONS
  6
CONTINUOUS
 62
     7
 10
823.00008
 20
562.0
 11
825.0
 21
550.0
  0
LINE
  8
DIMENSIONS
  6
CONTINUOUS
 62
     7
 10
801.99992
 20
677.0
 11
800.0
 21
689.0
  0
LINE
  8
DIMENSIONS
  6
CONTINUOUS
 62
     7
 10
798.00008
 20
677.0
 11
800.0
 21
689.0
  0
LINE
  8
DIMENSIONS
  6
CONTINUOUS
 62
     7
 10
826.99992
 20
682.999989
 11
825.0
 21
694.999989
  0
LINE
  8
DIMENSIONS
  6
CONTINUOUS
 62
     7
 10
823.00008
 20
682.999989
 11
825.0
 21
694.999989
  0
LINE
  8
DIMENSIONS
  6
CONTINUOUS
 62
     7
 10
658.54558
 20
761.54558
 11
857.5
 21
761.54558
  0
LINE
  8
DIMENSIONS
  6
CONTINUOUS
 62
     7
 10
600.0
 20
873.0
 11
600.0
 21
975.0
  0
LINE
  8
DIMENSIONS
  6
CONTINUOUS
 62
     7
 10
575.0
 20
937.0
 11
575.0
 21
873.0
  0
LINE
  8
DIMENSIONS
  6
CONTINUOUS
 62
     7
 10
598.00008
 20
885.0
 11
600.0
 21
873.0
  0
LINE
  8
DIMENSIONS
  6
CONTINUOUS
 62
     7
 10
601.99992
 20
885.0
 11
600.0
 21
873.0
  0
LINE
  8
DIMENSIONS
  6
CONTINUOUS
 62
     7
 10
576.99992
 20
885.0
 11
575.0
 21
873.0
  0
LINE
  8
DIMENSIONS
  6
CONTINUOUS
 62
     7
 10
573.00008
 20
885.0
 11
575.0
 21
873.0
  0
TEXT
  8
DIMENSIONS
  6
CONTINUOUS
 62
     7
 10
567.5
 20
897.024809
 40
15.0
  1
64
 50
90.0
  7
TTF_DEFAULT
  0
TEXT
  8
DIMENSIONS
  6
CONTINUOUS
 62
     7
 10
567.5
 20
948.024809
 40
15.0
  1
38
 50
90.0
  7
TTF_DEFAULT
  0
LINE
  8
DIMENSIONS
  6
CONTINUOUS
 62
     7
 10
535.0
 20
975.0
 11
607.5
 21
975.0
  0
LINE
  8
DIMENSIONS
  6
CONTINUOUS
 62
     7
 10
517.0
 20
1001.99992
 11
529.0
 21
1000.0
  0
LINE
  8
DIMENSIONS
  6
CONTINUOUS
 62
     7
 10
517.0
 20
998.00008
 11
529.0
 21
1000.0
  0
LINE
  8
DIMENSIONS
  6
CONTINUOUS
 62
     7
 10
529.0
 20
981.0
 11
529.0
 21
1007.5
  0
LINE
  8
DATA
  6
CONTINUOUS
 62
     7
 10
529.0
 20
971.4
 11
529.0
 21
975.0
  0
TEXT
  8
DIMENSIONS
  6
CONTINUOUS
 62
     7
 10
592.5
 20
912.037213
 40
15.0
  1
102
 50
90.0
  7
TTF_DEFAULT
  0
LINE
  8
DIMENSIONS
  6
CONTINUOUS
 62
     7
 10
598.00008
 20
963.0
 11
600.0
 21
975.0
  0
LINE
  8
DIMENSIONS
  6
CONTINUOUS
 62
     7
 10
601.99992
 20
963.0
 11
600.0
 21
975.0
  0
LINE
  8
DIMENSIONS
  6
CONTINUOUS
 62
     7
 10
576.99992
 20
949.0
 11
575.0
 21
937.0
  0
LINE
  8
DIMENSIONS
  6
CONTINUOUS
 62
     7
 10
573.00008
 20
949.0
 11
575.0
 21
937.0
  0
LINE
  8
DIMENSIONS
  6
CONTINUOUS
 62
     7
 10
576.99992
 20
963.0
 11
575.0
 21
975.0
  0
LINE
  8
DIMENSIONS
  6
CONTINUOUS
 62
     7
 10
573.00008
 20
963.0
 11
575.0
 21
975.0
  0
LINE
  8
DIMENSIONS
  6
CONTINUOUS
 62
     7
 10
575.0
 20
975.0
 11
575.0
 21
937.0
  0
LINE
  8
DIMENSIONS
  6
CONTINUOUS
 62
     7
 10
576.99992
 20
925.0
 11
575.0
 21
937.0
  0
LINE
  8
DIMENSIONS
  6
CONTINUOUS
 62
     7
 10
573.00008
 20
925.0
 11
575.0
 21
937.0
  0
LINE
  8
DIMENSIONS
  6
CONTINUOUS
 62
     7
 10
668.051245
 20
723.765616
 11
677.072717
 21
731.927279
  0
LINE
  8
DIMENSIONS
  6
CONTINUOUS
 62
     7
 10
671.18578
 20
721.280981
 11
677.072717
 21
731.927279
  0
LINE
  8
DATA
  6
CONTINUOUS
 62
     7
 10
650.0
 20
759.0
 11
652.54558
 21
761.54558
  0
LINE
  8
DIMENSIONS
  6
CONTINUOUS
 62
     7
 10
848.00008
 20
749.54558
 11
850.0
 21
761.54558
  0
LINE
  8
DIMENSIONS
  6
CONTINUOUS
 62
     7
 10
851.99992
 20
749.54558
 11
850.0
 21
761.54558
  0
ENDSEC
  0
EOF
